  0
SECTION
  2
HEADER
  9
$ACADVER
  1
AC1015
  9
$ACADMAINTVER
 70
     6
  9
$DWGCODEPAGE
  3
ANSI_1254
  9
$INSBASE
 10
0.0
 20
0.0
 30
0.0
  9
$EXTMIN
 10
0.0
 20
0.0
 30
0.0
  9
$EXTMAX
 10
279.4
 20
215.9
 30
0.0
  9
$LIMMIN
 10
0.0
 20
0.0
  9
$LIMMAX
 10
279.4
 20
215.9
  9
$ORTHOMODE
 70
     0
  9
$REGENMODE
 70
     1
  9
$FILLMODE
 70
     1
  9
$QTEXTMODE
 70
     0
  9
$MIRRTEXT
 70
     1
  9
$LTSCALE
 40
1.0
  9
$ATTMODE
 70
     1
  9
$TEXTSIZE
 40
3.5
  9
$TRACEWID
 40
1.0
  9
$TEXTSTYLE
  7
Standard
  9
$CLAYER
  8
0
  9
$CELTYPE
  6
ByLayer
  9
$CECOLOR
 62
   256
  9
$CELTSCALE
 40
1.0
  9
$DISPSILH
 70
     0
  9
$DIMSCALE
 40
1.0
  9
$DIMASZ
 40
3.5
  9
$DIMEXO
 40
1.0
  9
$DIMDLI
 40
3.75
  9
$DIMRND
 40
0.0
  9
$DIMDLE
 40
0.0
  9
$DIMEXE
 40
1.0
  9
$DIMTP
 40
0.0
  9
$DIMTM
 40
0.0
  9
$DIMTXT
 40
3.5
  9
$DIMCEN
 40
2.5
  9
$DIMTSZ
 40
0.0
  9
$DIMTOL
 70
     0
  9
$DIMLIM
 70
     0
  9
$DIMTIH
 70
     1
  9
$DIMTOH
 70
     1
  9
$DIMSE1
 70
     0
  9
$DIMSE2
 70
     0
  9
$DIMTAD
 70
     1
  9
$DIMZIN
 70
     0
  9
$DIMBLK
  1

  9
$DIMASO
 70
     1
  9
$DIMSHO
 70
     1
  9
$DIMPOST
  1

  9
$DIMAPOST
  1

  9
$DIMALT
 70
     0
  9
$DIMALTD
 70
     3
  9
$DIMALTF
 40
0.0393700787
  9
$DIMLFAC
 40
1.0
  9
$DIMTOFL
 70
     1
  9
$DIMTVP
 40
0.0
  9
$DIMTIX
 70
     0
  9
$DIMSOXD
 70
     0
  9
$DIMSAH
 70
     0
  9
$DIMBLK1
  1

  9
$DIMBLK2
  1

  9
$DIMSTYLE
  2
ISO-25
  9
$DIMCLRD
 70
     0
  9
$DIMCLRE
 70
     0
  9
$DIMCLRT
 70
     0
  9
$DIMTFAC
 40
1.0
  9
$DIMGAP
 40
1.524
  9
$DIMJUST
 70
     0
  9
$DIMSD1
 70
     0
  9
$DIMSD2
 70
     0
  9
$DIMTOLJ
 70
     0
  9
$DIMTZIN
 70
     0
  9
$DIMALTZ
 70
     0
  9
$DIMALTTZ
 70
     0
  9
$DIMUPT
 70
     0
  9
$DIMDEC
 70
     2
  9
$DIMTDEC
 70
     2
  9
$DIMALTU
 70
     2
  9
$DIMALTTD
 70
     3
  9
$DIMTXSTY
  7
Standard
  9
$DIMAUNIT
 70
     0
  9
$DIMADEC
 70
     2
  9
$DIMALTRND
 40
0.0
  9
$DIMAZIN
 70
     0
  9
$DIMDSEP
 70
    44
  9
$DIMATFIT
 70
     3
  9
$DIMFRAC
 70
     0
  9
$DIMLDRBLK
  1

  9
$DIMLUNIT
 70
     2
  9
$DIMLWD
 70
    -2
  9
$DIMLWE
 70
    -2
  9
$DIMTMOVE
 70
     0
  9
$LUNITS
 70
     2
  9
$LUPREC
 70
     2
  9
$SKETCHINC
 40
1.0
  9
$FILLETRAD
 40
10.0
  9
$AUNITS
 70
     0
  9
$AUPREC
 70
     2
  9
$MENU
  1
.
  9
$ELEVATION
 40
0.0
  9
$PELEVATION
 40
0.0
  9
$THICKNESS
 40
0.0
  9
$LIMCHECK
 70
     0
  9
$CHAMFERA
 40
0.0
  9
$CHAMFERB
 40
0.0
  9
$CHAMFERC
 40
0.0
  9
$CHAMFERD
 40
0.0
  9
$SKPOLY
 70
     0
  9
$TDCREATE
 40
2458985.705976944
  9
$TDUCREATE
 40
2458985.580976944
  9
$TDUPDATE
 40
2458985.705977326
  9
$TDUUPDATE
 40
2458985.580977326
  9
$TDINDWG
 40
0.0000000116
  9
$TDUSRTIMER
 40
0.0000000116
  9
$USRTIMER
 70
     1
  9
$ANGBASE
 50
0.0
  9
$ANGDIR
 70
     0
  9
$PDMODE
 70
     0
  9
$PDSIZE
 40
-1.0
  9
$PLINEWID
 40
0.0
  9
$SPLFRAME
 70
     0
  9
$SPLINETYPE
 70
     6
  9
$SPLINESEGS
 70
     8
  9
$HANDSEED
  5
F1
  9
$SURFTAB1
 70
     6
  9
$SURFTAB2
 70
     6
  9
$SURFTYPE
 70
     6
  9
$SURFU
 70
     6
  9
$SURFV
 70
     6
  9
$UCSBASE
  2

  9
$UCSNAME
  2

  9
$UCSORG
 10
0.0
 20
0.0
 30
0.0
  9
$UCSXDIR
 10
1.0
 20
0.0
 30
0.0
  9
$UCSYDIR
 10
0.0
 20
1.0
 30
0.0
  9
$UCSORTHOREF
  2

  9
$UCSORTHOVIEW
 70
     0
  9
$UCSORGTOP
 10
0.0
 20
0.0
 30
0.0
  9
$UCSORGBOTTOM
 10
0.0
 20
0.0
 30
0.0
  9
$UCSORGLEFT
 10
0.0
 20
0.0
 30
0.0
  9
$UCSORGRIGHT
 10
0.0
 20
0.0
 30
0.0
  9
$UCSORGFRONT
 10
0.0
 20
0.0
 30
0.0
  9
$UCSORGBACK
 10
0.0
 20
0.0
 30
0.0
  9
$PUCSBASE
  2

  9
$PUCSNAME
  2

  9
$PUCSORG
 10
0.0
 20
0.0
 30
0.0
  9
$PUCSXDIR
 10
1.0
 20
0.0
 30
0.0
  9
$PUCSYDIR
 10
0.0
 20
1.0
 30
0.0
  9
$PUCSORTHOREF
  2

  9
$PUCSORTHOVIEW
 70
     0
  9
$PUCSORGTOP
 10
0.0
 20
0.0
 30
0.0
  9
$PUCSORGBOTTOM
 10
0.0
 20
0.0
 30
0.0
  9
$PUCSORGLEFT
 10
0.0
 20
0.0
 30
0.0
  9
$PUCSORGRIGHT
 10
0.0
 20
0.0
 30
0.0
  9
$PUCSORGFRONT
 10
0.0
 20
0.0
 30
0.0
  9
$PUCSORGBACK
 10
0.0
 20
0.0
 30
0.0
  9
$USERI1
 70
     0
  9
$USERI2
 70
     0
  9
$USERI3
 70
     0
  9
$USERI4
 70
     0
  9
$USERI5
 70
     0
  9
$USERR1
 40
0.0
  9
$USERR2
 40
0.0
  9
$USERR3
 40
0.0
  9
$USERR4
 40
0.0
  9
$USERR5
 40
0.0
  9
$WORLDVIEW
 70
     1
  9
$SHADEDGE
 70
     3
  9
$SHADEDIF
 70
    70
  9
$TILEMODE
 70
     1
  9
$MAXACTVP
 70
    64
  9
$PINSBASE
 10
0.0
 20
0.0
 30
0.0
  9
$PLIMCHECK
 70
     0
  9
$PEXTMIN
 10
1.0000000000E+20
 20
1.0000000000E+20
 30
1.0000000000E+20
  9
$PEXTMAX
 10
-1.0000000000E+20
 20
-1.0000000000E+20
 30
-1.0000000000E+20
  9
$PLIMMIN
 10
0.0
 20
0.0
  9
$PLIMMAX
 10
420.0
 20
297.0
  9
$UNITMODE
 70
     0
  9
$VISRETAIN
 70
     1
  9
$PLINEGEN
 70
     0
  9
$PSLTSCALE
 70
     1
  9
$TREEDEPTH
 70
  3020
  9
$CMLSTYLE
  2
Standard
  9
$CMLJUST
 70
     0
  9
$CMLSCALE
 40
20.0
  9
$PROXYGRAPHICS
 70
     1
  9
$MEASUREMENT
 70
     1
  9
$CELWEIGHT
370
    -1
  9
$ENDCAPS
280
     0
  9
$JOINSTYLE
280
     0
  9
$LWDISPLAY
290
     1
  9
$INSUNITS
 70
     4
  9
$HYPERLINKBASE
  1

  9
$STYLESHEET
  1

  9
$XEDIT
290
     1
  9
$CEPSNTYPE
380
     0
  9
$PSTYLEMODE
290
     1
  9
$FINGERPRINTGUID
  2
{bce55741-af50-4810-af96-843ea4ceb1db}
  9
$VERSIONGUID
  2
{FAEB1C32-E019-11D5-929B-00C0DF256EC4}
  9
$EXTNAMES
290
     1
  9
$PSVPSCALE
 40
0.0
  9
$OLESTARTUP
290
     0
  0
ENDSEC
  0
SECTION
  2
CLASSES
  0
CLASS
  1
ACDBDICTIONARYWDFLT
  2
AcDbDictionaryWithDefault
  3
ObjectDBX Classes
 90
        0
280
     0
281
     0
  0
CLASS
  1
VISUALSTYLE
  2
AcDbVisualStyle
  3
ObjectDBX Classes
 90
     4095
280
     0
281
     0
  0
CLASS
  1
MATERIAL
  2
AcDbMaterial
  3
ObjectDBX Classes
 90
     1153
280
     0
281
     0
  0
CLASS
  1
SCALE
  2
AcDbScale
  3
ObjectDBX Classes
 90
     1153
280
     0
281
     0
  0
CLASS
  1
TABLESTYLE
  2
AcDbTableStyle
  3
ObjectDBX Classes
 90
     4095
280
     0
281
     0
  0
CLASS
  1
MLEADERSTYLE
  2
AcDbMLeaderStyle
  3
ACDB_MLEADERSTYLE_CLASS
 90
     4095
280
     0
281
     0
  0
CLASS
  1
SUN
  2
AcDbSun
  3
SCENEOE
 90
     1153
280
     0
281
     0
  0
CLASS
  1
ACDBPLACEHOLDER
  2
AcDbPlaceHolder
  3
ObjectDBX Classes
 90
        0
280
     0
281
     0
  0
CLASS
  1
LAYOUT
  2
AcDbLayout
  3
ObjectDBX Classes
 90
        0
280
     0
281
     0
  0
ENDSEC
  0
SECTION
  2
TABLES
  0
TABLE
  2
VPORT
  5
8
330
0
100
AcDbSymbolTable
 70
     1
  0
VPORT
  5
29
330
8
100
AcDbSymbolTableRecord
100
AcDbViewportTableRecord
  2
*Active
 70
     0
 10
0.0
 20
0.0
 11
1.0
 21
1.0
 12
139.7
 22
107.95
 13
0.0
 23
0.0
 14
10.0
 24
10.0
 15
10.0
 25
10.0
 16
0.0
 26
0.0
 36
1.0
 17
0.0
 27
0.0
 37
0.0
 40
215.9
 41
1.2941176471
 42
50.0
 43
0.0
 44
0.0
 50
0.0
 51
0.0
 71
     0
 72
  2000
 73
     1
 74
     3
 75
     0
 76
     0
 77
     0
 78
     0
281
     0
 65
     1
110
0.0
120
0.0
130
0.0
111
1.0
121
0.0
131
0.0
112
0.0
122
1.0
132
0.0
 79
     0
146
0.0
  0
ENDTAB
  0
TABLE
  2
LTYPE
  5
5
330
0
100
AcDbSymbolTable
 70
     6
  0
LTYPE
  5
14
330
5
100
AcDbSymbolTableRecord
100
AcDbLinetypeTableRecord
  2
ByBlock
 70
     0
  3

 72
    65
 73
     0
 40
0.0
  0
LTYPE
  5
15
330
5
100
AcDbSymbolTableRecord
100
AcDbLinetypeTableRecord
  2
ByLayer
 70
     0
  3

 72
    65
 73
     0
 40
0.0
  0
LTYPE
  5
16
330
5
100
AcDbSymbolTableRecord
100
AcDbLinetypeTableRecord
  2
Continuous
 70
     0
  3
Solid line
 72
    65
 73
     0
 40
0.0
  0
LTYPE
  5
6E
330
5
100
AcDbSymbolTableRecord
100
AcDbLinetypeTableRecord
  2
HIDDEN
 70
     0
  3
Hidden __ __ __ __ __ __ __ __ __ __ __ __ __ __
 72
    65
 73
     2
 40
1.905
 49
1.27
 74
     0
 49
-0.635
 74
     0
  0
LTYPE
  5
6F
330
5
100
AcDbSymbolTableRecord
100
AcDbLinetypeTableRecord
  2
PHANTOM
 70
     0
  3
Phantom ______  __  __  ______  __  __  ______
 72
    65
 73
     6
 40
12.7
 49
6.35
 74
     0
 49
-1.27
 74
     0
 49
1.27
 74
     0
 49
-1.27
 74
     0
 49
1.27
 74
     0
 49
-1.27
 74
     0
  0
LTYPE
  5
70
330
5
100
AcDbSymbolTableRecord
100
AcDbLinetypeTableRecord
  2
CENTER
 70
     0
  3
Center ____ _ ____ _ ____ _ ____ _ ____ _ ____
 72
    65
 73
     4
 40
10.16
 49
6.35
 74
     0
 49
-1.27
 74
     0
 49
1.27
 74
     0
 49
-1.27
 74
     0
  0
LTYPE
  5
71
330
5
100
AcDbSymbolTableRecord
100
AcDbLinetypeTableRecord
  2
CENTERX2
 70
     0
  3
Center (2x) ________  __  ________  __  _____
 72
    65
 73
     4
 40
20.32
 49
12.7
 74
     0
 49
-2.54
 74
     0
 49
2.54
 74
     0
 49
-2.54
 74
     0
  0
LTYPE
  5
72
330
5
100
AcDbSymbolTableRecord
100
AcDbLinetypeTableRecord
  2
DOT2
 70
     0
  3
Dot (.5x) ........................................
 72
    65
 73
     2
 40
0.635
 49
0.0
 74
     0
 49
-0.635
 74
     0
  0
ENDTAB
  0
TABLE
  2
LAYER
  5
2
330
0
100
AcDbSymbolTable
 70
    17
  0
LAYER
  5
10
330
2
100
AcDbSymbolTableRecord
100
AcDbLayerTableRecord
  2
0
 70
     0
 62
     7
  6
Continuous
370
    -3
390
F
  0
LAYER
  5
73
330
2
100
AcDbSymbolTableRecord
100
AcDbLayerTableRecord
  2
FORMAT
 70
     0
 62
     7
  6
Continuous
370
    -3
390
F
  0
LAYER
  5
74
330
2
100
AcDbSymbolTableRecord
100
AcDbLayerTableRecord
  2
YARDIMCI_GEOMETRI
 70
     0
 62
    -6
  6
Continuous
290
     0
370
    -3
390
F
  0
LAYER
  5
75
330
2
100
AcDbSymbolTableRecord
100
AcDbLayerTableRecord
  2
SAYFA_CERCEVESI
 70
     0
 62
     7
  6
Continuous
370
    25
390
F
  0
LAYER
  5
76
330
2
100
AcDbSymbolTableRecord
100
AcDbLayerTableRecord
  2
ANTET
 70
     0
 62
     7
  6
Continuous
370
    -3
390
F
  0
LAYER
  5
77
330
2
100
AcDbSymbolTableRecord
100
AcDbLayerTableRecord
  2
OLCU
 70
     0
 62
   150
  6
Continuous
370
    -3
390
F
  0
LAYER
  5
78
330
2
100
AcDbSymbolTableRecord
100
AcDbLayerTableRecord
  2
METIN
 70
     0
 62
    96
  6
Continuous
370
    -3
390
F
  0
LAYER
  5
79
330
2
100
AcDbSymbolTableRecord
100
AcDbLayerTableRecord
  2
BALON
 70
     0
 62
     5
  6
Continuous
370
    -3
390
F
  0
LAYER
  5
7A
330
2
100
AcDbSymbolTableRecord
100
AcDbLayerTableRecord
  2
VURGU
 70
     0
 62
     7
  6
Continuous
370
    -3
390
F
  0
LAYER
  5
7B
330
2
100
AcDbSymbolTableRecord
100
AcDbLayerTableRecord
  2
SILIK
 70
     0
 62
     7
  6
Continuous
370
    -3
390
F
  0
LAYER
  5
7C
330
2
100
AcDbSymbolTableRecord
100
AcDbLayerTableRecord
  2
MODEL
 70
     0
 62
     7
  6
Continuous
370
    -3
390
F
  0
LAYER
  5
7D
330
2
100
AcDbSymbolTableRecord
100
AcDbLayerTableRecord
  2
DETAYLANDıRMA
 70
     0
 62
   190
  6
Continuous
370
    -3
390
F
  0
LAYER
  5
7E
330
2
100
AcDbSymbolTableRecord
100
AcDbLayerTableRecord
  2
TOLERANS
 70
     0
 62
   230
  6
Continuous
370
    -3
390
F
  0
LAYER
  5
7F
330
2
100
AcDbSymbolTableRecord
100
AcDbLayerTableRecord
  2
MERKEZ_CIZGILERI
 70
     0
 62
    30
  6
Continuous
370
    -3
390
F
  0
LAYER
  5
80
330
2
100
AcDbSymbolTableRecord
100
AcDbLayerTableRecord
  2
KESIT-DETAY_CIZGILERI
 70
     0
 62
     7
  6
Continuous
370
    -3
390
F
  0
LAYER
  5
81
330
2
100
AcDbSymbolTableRecord
100
AcDbLayerTableRecord
  2
\U+041E\U+0421\U+0415\U+0412\U+042B\U+0415
 70
     0
 62
     7
  6
Continuous
370
    -3
390
F
  0
LAYER
  5
82
330
2
100
AcDbSymbolTableRecord
100
AcDbLayerTableRecord
  2
\U+0412\U+041E\U+0414\U+042F\U+041D\U+042B\U+0415_\U+0417\U+041D\U+0410\U+041A\U+0418
 70
     0
 62
    11
  6
Continuous
370
    -3
390
F
  0
ENDTAB
  0
TABLE
  2
STYLE
  5
3
330
0
100
AcDbSymbolTable
 70
     1
  0
STYLE
  5
11
330
3
100
AcDbSymbolTableRecord
100
AcDbTextStyleTableRecord
  2
Standard
 70
     0
 40
0.0
 41
1.0
 50
0.0
 71
     0
 42
3.5
  3
txt
  4

  0
ENDTAB
  0
TABLE
  2
VIEW
  5
6
330
0
100
AcDbSymbolTable
 70
     0
  0
ENDTAB
  0
TABLE
  2
UCS
  5
7
330
0
100
AcDbSymbolTable
 70
     0
  0
ENDTAB
  0
TABLE
  2
APPID
  5
9
330
0
100
AcDbSymbolTable
 70
     1
  0
APPID
  5
12
330
9
100
AcDbSymbolTableRecord
100
AcDbRegAppTableRecord
  2
ACAD
 70
     0
  0
ENDTAB
  0
TABLE
  2
DIMSTYLE
  5
A
330
0
100
AcDbSymbolTable
 70
     1
100
AcDbDimStyleTable
  0
DIMSTYLE
105
27
330
A
100
AcDbSymbolTableRecord
100
AcDbDimStyleTableRecord
  2
ISO-25
 70
     0
 41
2.5
 42
0.625
 43
3.75
 44
1.25
 73
     0
 74
     0
 77
     1
 78
     8
140
2.5
141
2.5
143
0.0393700787
147
0.625
171
     3
172
     1
178
     0
271
     2
272
     2
274
     3
278
    44
283
     0
284
     8
340
11
  0
ENDTAB
  0
TABLE
  2
BLOCK_RECORD
  5
1
330
0
100
AcDbSymbolTable
 70
     2
  0
BLOCK_RECORD
  5
1F
330
1
100
AcDbSymbolTableRecord
100
AcDbBlockTableRecord
  2
*Model_Space
340
22
  0
BLOCK_RECORD
  5
1B
330
1
100
AcDbSymbolTableRecord
100
AcDbBlockTableRecord
  2
*Paper_Space
340
1E
  0
BLOCK_RECORD
  5
23
330
1
100
AcDbSymbolTableRecord
100
AcDbBlockTableRecord
  2
*Paper_Space0
340
26
  0
BLOCK_RECORD
  5
88
330
1
100
AcDbSymbolTableRecord
100
AcDbBlockTableRecord
  2
SW_CENTERMARKSYMBOL_0
340
0
102
{BLKREFS
331
93
102
}
  0
ENDTAB
  0
ENDSEC
  0
SECTION
  2
BLOCKS
  0
BLOCK
  5
20
330
1F
100
AcDbEntity
  8
0
100
AcDbBlockBegin
  2
*Model_Space
 70
     0
 10
0.0
 20
0.0
 30
0.0
  3
*Model_Space
  1

  0
ENDBLK
  5
21
330
1F
100
AcDbEntity
  8
0
100
AcDbBlockEnd
  0
BLOCK
  5
1C
330
1B
100
AcDbEntity
 67
     1
  8
0
100
AcDbBlockBegin
  2
*Paper_Space
 70
     0
 10
0.0
 20
0.0
 30
0.0
  3
*Paper_Space
  1

  0
ENDBLK
  5
1D
330
1B
100
AcDbEntity
 67
     1
  8
0
100
AcDbBlockEnd
  0
BLOCK
  5
24
330
23
100
AcDbEntity
  8
0
100
AcDbBlockBegin
  2
*Paper_Space0
 70
     0
 10
0.0
 20
0.0
 30
0.0
  3
*Paper_Space0
  1

  0
ENDBLK
  5
25
330
23
100
AcDbEntity
  8
0
100
AcDbBlockEnd
  0
BLOCK
  5
89
330
88
100
AcDbEntity
  8
0
100
AcDbBlockBegin
  2
SW_CENTERMARKSYMBOL_0
 70
     0
 10
0.0
 20
0.0
 30
0.0
  3
SW_CENTERMARKSYMBOL_0
  1

  0
LINE
  5
8B
330
88
100
AcDbEntity
  8
FORMAT
 62
     0
100
AcDbLine
 10
0.0
 20
0.0
 30
0.0
 11
0.0
 21
2.5
 31
0.0
  0
LINE
  5
8C
330
88
100
AcDbEntity
  8
FORMAT
 62
     0
100
AcDbLine
 10
0.0
 20
0.0
 30
0.0
 11
-2.5
 21
0.0
 31
0.0
  0
LINE
  5
8D
330
88
100
AcDbEntity
  8
FORMAT
 62
     0
100
AcDbLine
 10
0.0
 20
0.0
 30
0.0
 11
0.0
 21
-2.5
 31
0.0
  0
LINE
  5
8E
330
88
100
AcDbEntity
  8
FORMAT
 62
     0
100
AcDbLine
 10
0.0
 20
0.0
 30
0.0
 11
2.5
 21
0.0
 31
0.0
  0
LINE
  5
8F
330
88
100
AcDbEntity
  8
FORMAT
 62
     0
100
AcDbLine
 10
0.0
 20
5.0
 30
0.0
 11
0.0
 21
115.0
 31
0.0
  0
LINE
  5
90
330
88
100
AcDbEntity
  8
FORMAT
 62
     0
100
AcDbLine
 10
-5.0
 20
0.0
 30
0.0
 11
-115.0
 21
0.0
 31
0.0
  0
LINE
  5
91
330
88
100
AcDbEntity
  8
FORMAT
 62
     0
100
AcDbLine
 10
0.0
 20
-5.0
 30
0.0
 11
0.0
 21
-115.0
 31
0.0
  0
LINE
  5
92
330
88
100
AcDbEntity
  8
FORMAT
 62
     0
100
AcDbLine
 10
5.0
 20
0.0
 30
0.0
 11
115.0
 21
0.0
 31
0.0
  0
ENDBLK
  5
8A
330
88
100
AcDbEntity
  8
0
100
AcDbBlockEnd
  0
ENDSEC
  0
SECTION
  2
ENTITIES
  0
CIRCLE
  5
83
330
1F
100
AcDbEntity
  8
0
  6
Continuous
 62
     7
370
    25
100
AcDbCircle
 10
130.6810329512
 20
112.0420513222
 30
0.0
 40
112.5
  0
CIRCLE
  5
84
330
1F
100
AcDbEntity
  8
0
  6
Continuous
 62
     7
370
    25
100
AcDbCircle
 10
130.6810329512
 20
112.0420513222
 30
0.0
 40
99.10000000000002
  0
CIRCLE
  5
85
330
1F
100
AcDbEntity
  8
0
  6
Continuous
 62
     7
370
    25
100
AcDbCircle
 10
130.6810329512
 20
112.0420513222
 30
0.0
 40
98.52845845913328
  0
CIRCLE
  5
86
330
1F
100
AcDbEntity
  8
0
  6
Continuous
 62
     7
370
    25
100
AcDbCircle
 10
130.6810329512
 20
112.0420513222
 30
0.0
 40
71.07154154086675
  0
CIRCLE
  5
87
330
1F
100
AcDbEntity
  8
0
  6
Continuous
 62
     7
370
    25
100
AcDbCircle
 10
130.6810329512
 20
112.0420513222
 30
0.0
 40
70.50000000000006
  0
INSERT
  5
93
330
1F
100
AcDbEntity
  8
FORMAT
 62
     7
100
AcDbBlockReference
  2
SW_CENTERMARKSYMBOL_0
 10
130.6810329512
 20
112.0420513222
 30
0.0
  0
ARC
  5
94
330
1F
100
AcDbEntity
  8
0
  6
Continuous
 62
     7
370
    25
100
AcDbCircle
 10
-238.6959443347
 20
222.5420513222
 30
0.0
 40
2.000000000000013
100
AcDbArc
 50
62.3367616722
 51
90.0
  0
ARC
  5
95
330
1F
100
AcDbEntity
  8
0
  6
Continuous
 62
     7
370
    25
100
AcDbCircle
 10
-238.6959443347
 20
1.5420513222
 30
0.0
 40
2.000000000000004
100
AcDbArc
 50
270.0
 51
297.6632383278
  0
LINE
  5
96
330
1F
100
AcDbEntity
  8
0
  6
Continuous
 62
     7
370
    25
100
AcDbLine
 10
-238.6959440457
 20
224.542048342
 30
0.0
 11
-358.2035194533
 21
224.542048342
 31
0.0
  0
LINE
  5
97
330
1F
100
AcDbEntity
  8
0
  6
Continuous
 62
     7
370
    25
100
AcDbLine
 10
-358.2035194533
 20
-0.4579456975
 30
0.0
 11
-238.6959440457
 21
-0.4579456975
 31
0.0
  0
LINE
  5
98
330
1F
100
AcDbEntity
  8
0
  6
Continuous
 62
     7
370
    25
100
AcDbLine
 10
-237.7673968124
 20
-0.2293320825
 30
0.0
 11
-176.6396577852
 21
31.8134320447
 31
0.0
  0
LINE
  5
99
330
1F
100
AcDbEntity
  8
0
  6
Continuous
 62
     7
370
    25
100
AcDbLine
 10
-176.6396577852
 20
192.2706705997
 30
0.0
 11
-237.7673968124
 21
224.313434727
 31
0.0
  0
ARC
  5
9A
330
1F
100
AcDbEntity
  8
0
  6
Continuous
 62
     7
370
    25
100
AcDbCircle
 10
-175.7111091727
 20
194.0420513222
 30
0.0
 40
2.000000000000028
100
AcDbArc
 50
242.3367616722
 51
270.0
  0
ARC
  5
9B
330
1F
100
AcDbEntity
  8
0
  6
Continuous
 62
     7
370
    25
100
AcDbCircle
 10
-175.7111091727
 20
30.0420513222
 30
0.0
 40
2.000000000000017
100
AcDbArc
 50
90.0
 51
117.6632383278
  0
LINE
  5
9C
330
1F
100
AcDbEntity
  8
0
  6
Continuous
 62
     7
370
    25
100
AcDbLine
 10
-78.2035331624
 20
192.0420495341
 30
0.0
 11
-175.7111105519
 21
192.0420495341
 31
0.0
  0
LINE
  5
9D
330
1F
100
AcDbEntity
  8
0
  6
Continuous
 62
     7
370
    25
100
AcDbLine
 10
-175.7111105519
 20
32.0420531104
 30
0.0
 11
-78.2035331624
 21
32.0420531104
 31
0.0
  0
LINE
  5
9E
330
1F
100
AcDbEntity
  8
0
  6
Continuous
 62
     7
370
    25
100
AcDbLine
 10
-358.2035194533
 20
224.542048342
 30
0.0
 11
-358.2035194533
 21
-0.4579456975
 31
0.0
  0
LINE
  5
9F
330
1F
100
AcDbEntity
  8
0
  6
Continuous
 62
     7
370
    25
100
AcDbLine
 10
-78.2035331624
 20
192.0420495341
 30
0.0
 11
-78.2035331624
 21
32.0420531104
 31
0.0
  0
LINE
  5
A0
330
1F
100
AcDbEntity
  8
0
  6
Continuous
 62
     1
370
    25
100
AcDbLine
 10
-237.7673968124
 20
224.313434727
 30
0.0
 11
-237.7673968124
 21
-0.2293320825
 31
0.0
  0
LINE
  5
A1
330
1F
100
AcDbEntity
  8
0
  6
Continuous
 62
     1
370
    25
100
AcDbLine
 10
-238.6959440457
 20
224.542048342
 30
0.0
 11
-238.6959440457
 21
-0.4579456975
 31
0.0
  0
LINE
  5
A2
330
1F
100
AcDbEntity
  8
0
  6
Continuous
 62
     1
370
    25
100
AcDbLine
 10
-176.6396577852
 20
192.2706705997
 30
0.0
 11
-176.6396577852
 21
31.8134320447
 31
0.0
  0
LINE
  5
A3
330
1F
100
AcDbEntity
  8
0
  6
Continuous
 62
     1
370
    25
100
AcDbLine
 10
-175.7111105519
 20
192.0420495341
 30
0.0
 11
-175.7111105519
 21
32.0420531104
 31
0.0
  0
ARC
  5
A4
330
1F
100
AcDbEntity
  8
0
  6
Continuous
 62
     7
370
    25
100
AcDbCircle
 10
241.1810329512
 20
436.1364614119
 30
0.0
 40
2.000000000000027
100
AcDbArc
 50
332.3367616722
 51
0.0
  0
ARC
  5
A5
330
1F
100
AcDbEntity
  8
0
  6
Continuous
 62
     7
370
    25
100
AcDbCircle
 10
20.1810329512
 20
436.1364614119
 30
0.0
 40
2.000000000000017
100
AcDbArc
 50
180.0
 51
207.6632383278
  0
LINE
  5
A6
330
1F
100
AcDbEntity
  8
0
  6
Continuous
 62
     7
370
    25
100
AcDbLine
 10
243.1810299709
 20
436.1364611229
 30
0.0
 11
243.1810299709
 21
555.6440365305
 31
0.0
  0
LINE
  5
A7
330
1F
100
AcDbEntity
  8
0
  6
Continuous
 62
     7
370
    25
100
AcDbLine
 10
18.1810359314
 20
555.6440365305
 30
0.0
 11
18.1810359314
 21
436.1364611229
 31
0.0
  0
LINE
  5
A8
330
1F
100
AcDbEntity
  8
0
  6
Continuous
 62
     7
370
    25
100
AcDbLine
 10
18.4096495464
 20
435.2079138896
 30
0.0
 11
50.4524136737
 21
374.0801748624
 31
0.0
  0
LINE
  5
A9
330
1F
100
AcDbEntity
  8
0
  6
Continuous
 62
     7
370
    25
100
AcDbLine
 10
210.9096522286
 20
374.0801748624
 30
0.0
 11
242.9524163559
 21
435.2079138896
 31
0.0
  0
ARC
  5
AA
330
1F
100
AcDbEntity
  8
0
  6
Continuous
 62
     7
370
    25
100
AcDbCircle
 10
212.6810329512
 20
373.1516262499
 30
0.0
 40
2.0
100
AcDbArc
 50
152.3367616722
 51
180.0
  0
ARC
  5
AB
330
1F
100
AcDbEntity
  8
0
  6
Continuous
 62
     7
370
    25
100
AcDbCircle
 10
48.6810329512
 20
373.1516262499
 30
0.0
 40
2.0
100
AcDbArc
 50
0.0
 51
27.6632383278
  0
LINE
  5
AC
330
1F
100
AcDbEntity
  8
0
  6
Continuous
 62
     7
370
    25
100
AcDbLine
 10
210.681031163
 20
275.6440502396
 30
0.0
 11
210.681031163
 21
373.1516276291
 31
0.0
  0
LINE
  5
AD
330
1F
100
AcDbEntity
  8
0
  6
Continuous
 62
     7
370
    25
100
AcDbLine
 10
50.6810347393
 20
373.1516276291
 30
0.0
 11
50.6810347393
 21
275.6440502396
 31
0.0
  0
LINE
  5
AE
330
1F
100
AcDbEntity
  8
0
  6
Continuous
 62
     7
370
    25
100
AcDbLine
 10
243.1810299709
 20
555.6440365305
 30
0.0
 11
18.1810359314
 21
555.6440365305
 31
0.0
  0
LINE
  5
AF
330
1F
100
AcDbEntity
  8
0
  6
Continuous
 62
     7
370
    25
100
AcDbLine
 10
210.681031163
 20
275.6440502396
 30
0.0
 11
50.6810347393
 21
275.6440502396
 31
0.0
  0
LINE
  5
B0
330
1F
100
AcDbEntity
  8
0
  6
Continuous
 62
     1
370
    25
100
AcDbLine
 10
242.9524163559
 20
435.2079138896
 30
0.0
 11
18.4096495464
 21
435.2079138896
 31
0.0
  0
LINE
  5
B1
330
1F
100
AcDbEntity
  8
0
  6
Continuous
 62
     1
370
    25
100
AcDbLine
 10
243.1810299709
 20
436.1364611229
 30
0.0
 11
18.1810359314
 21
436.1364611229
 31
0.0
  0
LINE
  5
B2
330
1F
100
AcDbEntity
  8
0
  6
Continuous
 62
     1
370
    25
100
AcDbLine
 10
210.9096522286
 20
374.0801748624
 30
0.0
 11
50.4524136737
 21
374.0801748624
 31
0.0
  0
LINE
  5
B3
330
1F
100
AcDbEntity
  8
0
  6
Continuous
 62
     1
370
    25
100
AcDbLine
 10
210.681031163
 20
373.1516276291
 30
0.0
 11
50.6810347393
 21
373.1516276291
 31
0.0
  0
ARC
  5
B4
330
1F
100
AcDbEntity
  8
0
  6
Continuous
 62
     7
370
    25
100
AcDbCircle
 10
489.5005413052
 20
1.5420513222
 30
0.0
 40
2.000000000000017
100
AcDbArc
 50
242.3367616722
 51
270.0
  0
ARC
  5
B5
330
1F
100
AcDbEntity
  8
0
  6
Continuous
 62
     7
370
    25
100
AcDbCircle
 10
489.5005413052
 20
222.5420513222
 30
0.0
 40
2.000000000000027
100
AcDbArc
 50
90.0
 51
117.6632383278
  0
LINE
  5
B6
330
1F
100
AcDbEntity
  8
0
  6
Continuous
 62
     7
370
    25
100
AcDbLine
 10
489.5005410161
 20
-0.4579456975
 30
0.0
 11
609.0081164238
 21
-0.4579456975
 31
0.0
  0
LINE
  5
B7
330
1F
100
AcDbEntity
  8
0
  6
Continuous
 62
     7
370
    25
100
AcDbLine
 10
609.0081164238
 20
224.542048342
 30
0.0
 11
489.5005410161
 21
224.542048342
 31
0.0
  0
LINE
  5
B8
330
1F
100
AcDbEntity
  8
0
  6
Continuous
 62
     7
370
    25
100
AcDbLine
 10
488.5719937828
 20
224.313434727
 30
0.0
 11
427.4442547557
 21
192.2706705997
 31
0.0
  0
LINE
  5
B9
330
1F
100
AcDbEntity
  8
0
  6
Continuous
 62
     7
370
    25
100
AcDbLine
 10
427.4442547557
 20
31.8134320447
 30
0.0
 11
488.5719937828
 21
-0.2293320825
 31
0.0
  0
ARC
  5
BA
330
1F
100
AcDbEntity
  8
0
  6
Continuous
 62
     7
370
    25
100
AcDbCircle
 10
426.5157061431
 20
30.0420513222
 30
0.0
 40
2.0
100
AcDbArc
 50
62.3367616722
 51
90.0
  0
ARC
  5
BB
330
1F
100
AcDbEntity
  8
0
  6
Continuous
 62
     7
370
    25
100
AcDbCircle
 10
426.5157061431
 20
194.0420513222
 30
0.0
 40
2.000000000000028
100
AcDbArc
 50
270.0
 51
297.6632383278
  0
LINE
  5
BC
330
1F
100
AcDbEntity
  8
0
  6
Continuous
 62
     7
370
    25
100
AcDbLine
 10
329.0081301328
 20
32.0420531104
 30
0.0
 11
426.5157075223
 21
32.0420531104
 31
0.0
  0
LINE
  5
BD
330
1F
100
AcDbEntity
  8
0
  6
Continuous
 62
     7
370
    25
100
AcDbLine
 10
426.5157075223
 20
192.0420495341
 30
0.0
 11
329.0081301328
 21
192.0420495341
 31
0.0
  0
LINE
  5
BE
330
1F
100
AcDbEntity
  8
0
  6
Continuous
 62
     7
370
    25
100
AcDbLine
 10
609.0081164238
 20
112.0420513222
 30
0.0
 11
609.0081164238
 21
224.542048342
 31
0.0
  0
LINE
  5
BF
330
1F
100
AcDbEntity
  8
0
  6
Continuous
 62
     7
370
    25
100
AcDbLine
 10
609.0081164238
 20
-0.4579456975
 30
0.0
 11
609.0081164238
 21
112.0420513222
 31
0.0
  0
LINE
  5
C0
330
1F
100
AcDbEntity
  8
0
  6
Continuous
 62
     7
370
    25
100
AcDbLine
 10
329.0081301328
 20
112.0420513222
 30
0.0
 11
329.0081301328
 21
192.0420495341
 31
0.0
  0
LINE
  5
C1
330
1F
100
AcDbEntity
  8
0
  6
Continuous
 62
     7
370
    25
100
AcDbLine
 10
329.0081301328
 20
32.0420531104
 30
0.0
 11
329.0081301328
 21
112.0420513222
 31
0.0
  0
LINE
  5
C2
330
1F
100
AcDbEntity
  8
0
  6
Continuous
 62
     1
370
    25
100
AcDbLine
 10
488.5719937828
 20
112.0420513222
 30
0.0
 11
488.5719937828
 21
224.313434727
 31
0.0
  0
LINE
  5
C3
330
1F
100
AcDbEntity
  8
0
  6
Continuous
 62
     1
370
    25
100
AcDbLine
 10
488.5719937828
 20
-0.2293320825
 30
0.0
 11
488.5719937828
 21
112.0420513222
 31
0.0
  0
LINE
  5
C4
330
1F
100
AcDbEntity
  8
0
  6
Continuous
 62
     1
370
    25
100
AcDbLine
 10
489.5005410161
 20
112.0420513222
 30
0.0
 11
489.5005410161
 21
224.542048342
 31
0.0
  0
LINE
  5
C5
330
1F
100
AcDbEntity
  8
0
  6
Continuous
 62
     1
370
    25
100
AcDbLine
 10
489.5005410161
 20
-0.4579456975
 30
0.0
 11
489.5005410161
 21
112.0420513222
 31
0.0
  0
LINE
  5
C6
330
1F
100
AcDbEntity
  8
0
  6
Continuous
 62
     1
370
    25
100
AcDbLine
 10
427.4442547557
 20
112.0420513222
 30
0.0
 11
427.4442547557
 21
192.2706705997
 31
0.0
  0
LINE
  5
C7
330
1F
100
AcDbEntity
  8
0
  6
Continuous
 62
     1
370
    25
100
AcDbLine
 10
427.4442547557
 20
31.8134320447
 30
0.0
 11
427.4442547557
 21
112.0420513222
 31
0.0
  0
LINE
  5
C8
330
1F
100
AcDbEntity
  8
0
  6
Continuous
 62
     1
370
    25
100
AcDbLine
 10
426.5157075223
 20
112.0420513222
 30
0.0
 11
426.5157075223
 21
192.0420495341
 31
0.0
  0
LINE
  5
C9
330
1F
100
AcDbEntity
  8
0
  6
Continuous
 62
     1
370
    25
100
AcDbLine
 10
426.5157075223
 20
32.0420531104
 30
0.0
 11
426.5157075223
 21
112.0420513222
 31
0.0
  0
ARC
  5
CA
330
1F
100
AcDbEntity
  8
0
  6
Continuous
 62
     7
370
    25
100
AcDbCircle
 10
20.1810329512
 20
-248.7657523925
 30
0.0
 40
2.000000000000004
100
AcDbArc
 50
152.3367616722
 51
180.0
  0
ARC
  5
CB
330
1F
100
AcDbEntity
  8
0
  6
Continuous
 62
     7
370
    25
100
AcDbCircle
 10
241.1810329512
 20
-248.7657523925
 30
0.0
 40
2.000000000000013
100
AcDbArc
 50
0.0
 51
27.6632383278
  0
LINE
  5
CC
330
1F
100
AcDbEntity
  8
0
  6
Continuous
 62
     7
370
    25
100
AcDbLine
 10
18.1810359314
 20
-248.7657521034
 30
0.0
 11
18.1810359314
 21
-368.2733275111
 31
0.0
  0
LINE
  5
CD
330
1F
100
AcDbEntity
  8
0
  6
Continuous
 62
     7
370
    25
100
AcDbLine
 10
243.1810299709
 20
-368.2733275111
 30
0.0
 11
243.1810299709
 21
-248.7657521034
 31
0.0
  0
LINE
  5
CE
330
1F
100
AcDbEntity
  8
0
  6
Continuous
 62
     7
370
    25
100
AcDbLine
 10
242.9524163559
 20
-247.8372048701
 30
0.0
 11
210.9096522286
 21
-186.709465843
 31
0.0
  0
LINE
  5
CF
330
1F
100
AcDbEntity
  8
0
  6
Continuous
 62
     7
370
    25
100
AcDbLine
 10
50.4524136737
 20
-186.709465843
 30
0.0
 11
18.4096495464
 21
-247.8372048701
 31
0.0
  0
ARC
  5
D0
330
1F
100
AcDbEntity
  8
0
  6
Continuous
 62
     7
370
    25
100
AcDbCircle
 10
48.6810329512
 20
-185.7809172304
 30
0.0
 40
2.000000000000014
100
AcDbArc
 50
332.3367616722
 51
0.0
  0
ARC
  5
D1
330
1F
100
AcDbEntity
  8
0
  6
Continuous
 62
     7
370
    25
100
AcDbCircle
 10
212.6810329512
 20
-185.7809172304
 30
0.0
 40
2.000000000000001
100
AcDbArc
 50
180.0
 51
207.6632383278
  0
LINE
  5
D2
330
1F
100
AcDbEntity
  8
0
  6
Continuous
 62
     7
370
    25
100
AcDbLine
 10
50.6810347393
 20
-88.2733412201
 30
0.0
 11
50.6810347393
 21
-185.7809186096
 31
0.0
  0
LINE
  5
D3
330
1F
100
AcDbEntity
  8
0
  6
Continuous
 62
     7
370
    25
100
AcDbLine
 10
210.681031163
 20
-185.7809186096
 30
0.0
 11
210.681031163
 21
-88.2733412201
 31
0.0
  0
LINE
  5
D4
330
1F
100
AcDbEntity
  8
0
  6
Continuous
 62
     7
370
    25
100
AcDbLine
 10
18.1810359314
 20
-368.2733275111
 30
0.0
 11
243.1810299709
 21
-368.2733275111
 31
0.0
  0
LINE
  5
D5
330
1F
100
AcDbEntity
  8
0
  6
Continuous
 62
     7
370
    25
100
AcDbLine
 10
50.6810347393
 20
-88.2733412201
 30
0.0
 11
210.681031163
 21
-88.2733412201
 31
0.0
  0
LINE
  5
D6
330
1F
100
AcDbEntity
  8
0
  6
Continuous
 62
     1
370
    25
100
AcDbLine
 10
18.4096495464
 20
-247.8372048701
 30
0.0
 11
242.9524163559
 21
-247.8372048701
 31
0.0
  0
LINE
  5
D7
330
1F
100
AcDbEntity
  8
0
  6
Continuous
 62
     1
370
    25
100
AcDbLine
 10
18.1810359314
 20
-248.7657521034
 30
0.0
 11
243.1810299709
 21
-248.7657521034
 31
0.0
  0
LINE
  5
D8
330
1F
100
AcDbEntity
  8
0
  6
Continuous
 62
     1
370
    25
100
AcDbLine
 10
50.4524136737
 20
-186.709465843
 30
0.0
 11
210.9096522286
 21
-186.709465843
 31
0.0
  0
LINE
  5
D9
330
1F
100
AcDbEntity
  8
0
  6
Continuous
 62
     1
370
    25
100
AcDbLine
 10
50.6810347393
 20
-185.7809186096
 30
0.0
 11
210.681031163
 21
-185.7809186096
 31
0.0
  0
LINE
  5
DA
330
1F
100
AcDbEntity
  8
0
  6
Continuous
 62
     7
370
    25
100
AcDbLine
 10
518.8678372065
 20
-110.6583454339
 30
0.0
 11
434.3632202326
 21
-61.8748684404
 31
0.0
  0
LINE
  5
DB
330
1F
100
AcDbEntity
  8
0
  6
Continuous
 62
     7
370
    25
100
AcDbLine
 10
321.872364863
 20
-256.7358673727
 30
0.0
 11
406.3769818369
 21
-305.5193443663
 31
0.0
  0
SPLINE
  5
DC
330
1F
100
AcDbEntity
  8
0
  6
Continuous
 62
     7
370
    25
100
AcDbSpline
210
0.0
220
0.0
230
1.0
 70
     8
 71
     3
 72
    11
 73
     7
 74
     0
 42
0.000000001
 43
0.00000001
 40
0.0
 40
0.0
 40
0.0
 40
0.0
 40
0.1974901888581235
 40
0.4915698289455609
 40
0.7849523642040169
 40
1.0
 40
1.0
 40
1.0
 40
1.0
 10
531.9972575013566
 20
-122.9114386280917
 30
0.0
 10
531.5623644994142
 20
-122.2875867430598
 30
0.0
 10
530.4798789348885
 20
-120.7347664931747
 30
0.0
 10
528.5586146387253
 20
-118.48789200779
 30
0.0
 10
526.4896546151377
 20
-116.3270336747581
 30
0.0
 10
525.0636286882055
 20
-115.1202604108265
 30
0.0
 10
524.4604711227634
 20
-114.6098388187875
 30
0.0
  0
SPLINE
  5
DD
330
1F
100
AcDbEntity
  8
0
  6
Continuous
 62
     7
370
    25
100
AcDbSpline
210
0.0
220
0.0
230
1.0
 70
     8
 71
     3
 72
    12
 73
     8
 74
     0
 42
0.000000001
 43
0.00000001
 40
0.0
 40
0.0
 40
0.0
 40
0.0
 40
0.0186302213763856
 40
0.2855316264521605
 40
0.5527908228286266
 40
0.8205445010385419
 40
1.0
 40
1.0
 40
1.0
 40
1.0
 10
412.5252192179052
 20
-308.3787514208083
 30
0.0
 10
412.5942324180997
 20
-308.4069162983968
 30
0.0
 10
413.6519467039416
 20
-308.8385785499723
 30
0.0
 10
415.8057967504486
 20
-309.4579668868155
 30
0.0
 10
418.9904745365573
 20
-310.2055473848264
 30
0.0
 10
421.9138174672932
 20
-310.6673785562521
 30
0.0
 10
423.8031848274026
 20
-310.7886645474175
 30
0.0
 10
424.5613476282522
 20
-310.8373340273223
 30
0.0
  0
LINE
  5
DE
330
1F
100
AcDbEntity
  8
0
  6
Continuous
 62
     7
370
    25
100
AcDbLine
 10
431.9575347544
 20
-310.7869311472
 30
0.0
 11
484.1206621563
 21
-306.5371957997
 31
0.0
  0
LINE
  5
DF
330
1F
100
AcDbEntity
  8
0
  6
Continuous
 62
     7
370
    25
100
AcDbLine
 10
558.6274394854
 20
-177.4736889446
 30
0.0
 11
536.2218152517
 21
-130.1763322102
 31
0.0
  0
LINE
  5
E0
330
1F
100
AcDbEntity
  8
0
  6
Continuous
 62
     7
370
    25
100
AcDbLine
 10
616.1044296938
 20
-204.3185910195
 30
0.0
 11
554.4962633463
 21
-168.752953623
 31
0.0
  0
LINE
  5
E1
330
1F
100
AcDbEntity
  8
0
  6
Continuous
 62
     7
370
    25
100
AcDbLine
 10
474.5027671312
 20
-307.3207675152
 30
0.0
 11
536.1109334787
 21
-342.8864049118
 31
0.0
  0
LWPOLYLINE
  5
E2
330
1F
100
AcDbEntity
  8
0
  6
Continuous
 62
     7
370
    25
100
AcDbPolyline
 90
      124
 70
   128
 43
0.0
 10
298.5682817717
 20
-205.22832298
 10
298.6720473127
 20
-200.4779514556
 10
298.983080518
 20
-195.6201634638
 10
299.5005647924
 20
-190.6676358445
 10
300.223156705
 20
-185.6332856943
 10
301.1489649161
 20
-180.5302483112
 10
302.2755765186
 20
-175.371839174
 10
303.6000465014
 20
-170.1715166787
 10
305.1189293597
 20
-164.9428441181
 10
306.8282580213
 20
-159.6994638241
 10
308.7235754571
 20
-154.4550515433
 10
310.7999294122
 20
-149.2232981848
 10
313.0519092852
 20
-144.0178459452
 10
315.4736408588
 20
-138.8522761405
 10
318.0588021059
 20
-133.7400666219
 10
320.8006495307
 20
-128.6945583174
 10
323.6920339741
 20
-123.7289065643
 10
326.7254058817
 20
-118.8560659001
 10
329.8928574511
 20
-114.0887596478
 10
333.1861173633
 20
-109.4394160367
 10
336.5966034663
 20
-104.9201682075
 10
340.1154148726
 20
-100.542797937
 10
343.7333662032
 20
-96.3187402042
 10
347.4410244667
 20
-92.2590071477
 10
351.2287143272
 20
-88.374185024
 10
355.0865549828
 20
-84.6744190017
 10
359.0044812393
 20
-81.1693523268
 10
362.972272486
 20
-77.8681400136
 10
366.9795764032
 20
-74.7793804049
 10
371.0159385968
 20
-71.9111467346
 10
375.0708286108
 20
-69.2709112736
 10
379.1336680803
 20
-66.8655655795
 10
383.1938569081
 20
-64.7013871347
 10
387.240803229
 20
-62.7840159637
 10
391.2639477757
 20
-61.1184588191
 10
395.2527966416
 20
-59.7090580999
 10
399.1969421892
 20
-58.5594980327
 10
403.086094002
 20
-57.6727685526
 10
406.9101065434
 20
-57.0511858379
 10
410.659002864
 20
-56.6963786244
 10
414.3230048949
 20
-56.6092585502
 10
417.8925479359
 20
-56.7900665448
 10
421.3583254358
 20
-57.2383226436
 10
424.7112916273
 20
-57.9528670521
 10
427.9427063077
 20
-58.9318160442
 10
431.0441295706
 20
-60.1726380074
 10
434.0074744894
 20
-61.6720804436
 10
436.8250071174
 20
-63.4262429734
 10
439.4893833663
 20
-65.4305377954
 10
441.9936437377
 20
-67.6797413976
 10
444.3312607384
 20
-70.1679884776
 10
446.4961336122
 20
-72.8887871517
 10
448.4826199496
 20
-75.8350311253
 10
450.28553042
 20
-78.9990422779
 10
451.9001603814
 20
-82.3725615413
 10
453.3223004173
 20
-85.9467945275
 10
454.5482468733
 20
-89.7124054466
 10
455.5747913207
 20
-93.6595794633
 10
456.3992574346
 20
-97.7780166173
 10
457.0194957256
 20
-102.0569721266
 10
457.4338888085
 20
-106.4852814837
 10
457.6413566703
 20
-111.0513918253
 10
457.6413566703
 20
-115.7433912095
 10
457.4338888085
 20
-120.5490388455
 10
457.0194957256
 20
-125.4557962722
 10
456.3992574346
 20
-130.4508636694
 10
455.5747913207
 20
-135.5212091365
 10
454.5482468733
 20
-140.6536061441
 10
453.3223004173
 20
-145.8346647127
 10
451.9001603814
 20
-151.050865634
 10
450.28553042
 20
-156.2885969699
 10
448.4826199496
 20
-161.5342042437
 10
446.4961336122
 20
-166.7739965229
 10
444.3312607384
 20
-171.9943042135
 10
441.9936437377
 20
-177.1815064337
 10
439.4893833663
 20
-182.3220675164
 10
436.8250071174
 20
-187.4025856762
 10
434.0074744894
 20
-192.4098021351
 10
431.0441295706
 20
-197.3306497878
 10
427.9427063077
 20
-202.1522988303
 10
424.7112916273
 20
-206.8621597977
 10
421.3583254358
 20
-211.447956569
 10
417.8925479359
 20
-215.8977141948
 10
414.3230048949
 20
-220.1998288601
 10
410.659002864
 20
-224.3430754849
 10
406.9101065434
 20
-228.316651831
 10
403.086094002
 20
-232.1101800182
 10
399.1969421892
 20
-235.713769642
 10
395.2527966416
 20
-239.1180230934
 10
391.2639477757
 20
-242.3140492455
 10
387.240803229
 20
-245.2935159225
 10
383.1938569081
 20
-248.0486495166
 10
379.1336680803
 20
-250.5722653098
 10
375.0708286108
 20
-252.8577742195
 10
371.0159385968
 20
-254.8992151164
 10
366.9795764032
 20
-256.6912660379
 10
362.972272486
 20
-258.2292410491
 10
359.0044812393
 20
-259.5091429976
 10
355.0865549828
 20
-260.5276176922
 10
351.2287143272
 20
-261.2820196813
 10
347.4410244667
 20
-261.7703711849
 10
343.7333662032
 20
-261.9914092406
 10
340.1154148726
 20
-261.9445492001
 10
336.5966034663
 20
-261.6299121015
 10
333.1861173633
 20
-261.0483277113
 10
329.8928574511
 20
-260.2013010603
 10
326.7254058817
 20
-259.0910565472
 10
323.6920339741
 20
-257.7204725399
 10
320.8006495307
 20
-256.0931422069
 10
318.0588021059
 20
-254.213303556
 10
315.4736408588
 20
-252.0858576807
 10
313.0519092852
 20
-249.716359635
 10
310.7999294122
 20
-247.1109880123
 10
308.7235754571
 20
-244.2765419024
 10
306.8282580213
 20
-241.2204165539
 10
305.1189293597
 20
-237.9505851245
 10
303.6000465014
 20
-234.4755773842
 10
302.2755765186
 20
-230.8044553811
 10
301.1489649161
 20
-226.9468043127
 10
300.223156705
 20
-222.9126823377
 10
299.5005647924
 20
-218.7126190515
 10
298.983080518
 20
-214.3575660578
 10
298.6720473127
 20
-209.8588893609
 10
298.5682817717
 20
-205.22832298
  0
LWPOLYLINE
  5
E3
330
1F
100
AcDbEntity
  8
0
  6
Continuous
 62
     7
370
    25
100
AcDbPolyline
 90
      117
 70
   128
 43
0.0
 10
308.0435097146
 20
-199.7583903194
 10
308.1462795363
 20
-195.3181856591
 10
308.4542887052
 20
-190.7723491476
 10
308.9666310641
 20
-186.1342154166
 10
309.6818103997
 20
-181.4173852046
 10
310.5977193698
 20
-176.6356987384
 10
311.711676381
 20
-171.8031787021
 10
313.0204150526
 20
-166.9340028594
 10
314.520094753
 20
-162.0424508221
 10
316.2063216733
 20
-157.142864508
 10
318.0741435588
 20
-152.2496253266
 10
320.1180813191
 20
-147.3770842196
 10
322.3321448334
 20
-142.5395282015
 10
324.7098329504
 20
-137.7511499418
 10
327.2441809033
 20
-133.0259899739
 10
329.927744505
 20
-128.3779214841
 10
332.7526633682
 20
-123.8205590625
 10
335.7106451005
 20
-119.3672860779
 10
338.7930127195
 20
-115.0311543012
 10
341.9907257262
 20
-110.8248899909
 10
345.2944064467
 20
-106.7608239336
 10
348.6943663743
 20
-102.8508762362
 10
352.1806272426
 20
-99.1065259103
 10
355.7429658066
 20
-95.5387485181
 10
359.3709362333
 20
-92.1580093301
 10
363.0538938094
 20
-88.9742253045
 10
366.7810357708
 20
-85.9967293492
 10
370.5414302785
 20
-83.2342657616
 10
374.3240473706
 20
-80.694929775
 10
378.1177925478
 20
-78.3861725045
 10
381.911537725
 20
-76.3147648278
 10
385.6941548171
 20
-74.4867840808
 10
389.4545493248
 20
-72.9075885846
 10
393.1816912862
 20
-71.581818029
 10
396.8646488623
 20
-70.5133497489
 10
400.492619289
 20
-69.7053234426
 10
404.054957853
 20
-69.1601122762
 10
407.5412187213
 20
-68.8793114813
 10
410.9411786489
 20
-68.8637490031
 10
414.2448593694
 20
-69.1134664913
 10
417.4425723761
 20
-69.6277299505
 10
420.5249399951
 20
-70.405035826
 10
423.4829217274
 20
-71.4430957973
 10
426.3078405906
 20
-72.7388763242
 10
428.9914041923
 20
-74.2885682303
 10
431.5257521452
 20
-76.0876323356
 10
433.9034402622
 20
-78.130790329
 10
436.1175037765
 20
-80.4120430259
 10
438.1614415368
 20
-82.9247038264
 10
440.0292634223
 20
-85.6614017621
 10
441.7154903426
 20
-88.6141119144
 10
443.215170043
 20
-91.7741706255
 10
444.5239087146
 20
-95.1323089613
 10
445.6378657258
 20
-98.6786816088
 10
446.5537746959
 20
-102.4028820874
 10
447.2689540315
 20
-106.2939838146
 10
447.7812963904
 20
-110.3405796493
 10
448.0893055593
 20
-114.5307963439
 10
448.192075381
 20
-118.8523454937
 10
448.0893055593
 20
-123.292550154
 10
447.7812963904
 20
-127.8383866656
 10
447.2689540315
 20
-132.4765203965
 10
446.5537746959
 20
-137.1933506086
 10
445.6378657258
 20
-141.9750370748
 10
444.5239087146
 20
-146.807557111
 10
443.215170043
 20
-151.6767329537
 10
441.7154903426
 20
-156.568284991
 10
440.0292634223
 20
-161.4678713051
 10
438.1614415368
 20
-166.3611104865
 10
436.1175037765
 20
-171.2336515936
 10
433.9034402622
 20
-176.0712076116
 10
431.5257521452
 20
-180.8595858713
 10
428.9914041923
 20
-185.5847458392
 10
426.3078405906
 20
-190.232814329
 10
423.4829217274
 20
-194.7901767506
 10
420.5249399951
 20
-199.2434497352
 10
417.4425723761
 20
-203.579581512
 10
414.2448593694
 20
-207.7858458222
 10
410.9411786489
 20
-211.8499118795
 10
407.5412187213
 20
-215.7598595769
 10
404.054957853
 20
-219.5042099028
 10
400.492619289
 20
-223.071987295
 10
396.8646488623
 20
-226.452726483
 10
393.1816912862
 20
-229.6365105086
 10
389.4545493248
 20
-232.614006464
 10
385.6941548171
 20
-235.3764700515
 10
381.911537725
 20
-237.9158060381
 10
378.1177925478
 20
-240.2245633086
 10
374.3240473706
 20
-242.2959709853
 10
370.5414302785
 20
-244.1239517323
 10
366.7810357708
 20
-245.7031472285
 10
363.0538938094
 20
-247.0289177842
 10
359.3709362333
 20
-248.0973860642
 10
355.7429658066
 20
-248.9054123705
 10
352.1806272426
 20
-249.4506235369
 10
348.6943663743
 20
-249.7314243318
 10
345.2944064467
 20
-249.74698681
 10
341.9907257262
 20
-249.4972693218
 10
338.7930127195
 20
-248.9830058627
 10
335.7106451005
 20
-248.2056999871
 10
332.7526633682
 20
-247.1676400158
 10
329.927744505
 20
-245.8718594889
 10
327.2441809033
 20
-244.3221675828
 10
324.7098329504
 20
-242.5231034776
 10
322.3321448334
 20
-240.4799454841
 10
320.1180813191
 20
-238.1986927872
 10
318.0741435588
 20
-235.6860319867
 10
316.2063216733
 20
-232.949334051
 10
314.520094753
 20
-229.9966238987
 10
313.0204150526
 20
-226.8365651876
 10
311.711676381
 20
-223.4784268518
 10
310.5977193698
 20
-219.9320542043
 10
309.6818103997
 20
-216.2078537257
 10
308.9666310641
 20
-212.3167519985
 10
308.4542887052
 20
-208.2701561638
 10
308.1462795363
 20
-204.0799394692
 10
308.0435097146
 20
-199.7583903194
  0
ARC
  5
E4
330
1F
100
AcDbEntity
  8
0
  6
Continuous
 62
     7
370
    25
100
AcDbCircle
 10
499.8834749485
 20
-143.5018599528
 30
0.0
 40
37.93550390197235
100
AcDbArc
 50
49.9659888183
 51
59.9710274167
  0
ARC
  5
E5
330
1F
100
AcDbEntity
  8
0
  6
Continuous
 62
     7
370
    25
100
AcDbCircle
 10
425.2997008976
 20
-272.708886793
 30
0.0
 40
37.87605342188078
100
AcDbArc
 50
240.0267348242
 51
249.949166565
  0
ARC
  5
E6
330
1F
100
AcDbEntity
  8
0
  6
Continuous
 62
     7
370
    25
100
AcDbCircle
 10
483.4837888623
 20
-155.5172725453
 30
0.0
 40
58.46714278610536
100
AcDbArc
 50
11.7539544636
 51
33.7112680646
  0
ARC
  5
E7
330
1F
100
AcDbEntity
  8
0
  6
Continuous
 62
     7
370
    25
100
AcDbCircle
 10
427.6948951585
 20
-253.8949242422
 30
0.0
 40
57.04486134960725
100
AcDbArc
 50
267.0199059149
 51
288.9252844498
  0
ARC
  5
E8
330
1F
100
AcDbEntity
  8
0
  6
Continuous
 62
     7
370
    25
100
AcDbCircle
 10
519.0228771006
 20
-196.036394664
 30
0.0
 40
43.73894609288803
100
AcDbArc
 50
14.0293244423
 51
25.1125422659
  0
ARC
  5
E9
330
1F
100
AcDbEntity
  8
0
  6
Continuous
 62
     7
370
    25
100
AcDbCircle
 10
480.5073182682
 20
-263.8504200819
 30
0.0
 40
42.83943364743647
100
AcDbArc
 50
274.8384304803
 51
283.4159238823
  0
LWPOLYLINE
  5
EA
330
1F
100
AcDbEntity
  8
0
  6
Continuous
 62
     7
370
    25
100
AcDbPolyline
 90
       54
 70
   128
 43
0.0
 10
616.1044296938
 20
-204.3185910195
 10
616.1076802695
 20
-204.3204681469
 10
618.4498438615
 20
-205.841549823
 10
620.6375023752
 20
-207.609889115
 10
622.6626795196
 20
-209.6190243819
 10
624.5179785227
 20
-211.8616331929
 10
626.1966400837
 20
-214.3295232074
 10
627.6925265678
 20
-217.0136960526
 10
629.0001852264
 20
-219.9043564549
 10
630.1148481973
 20
-222.9909533046
 10
631.0324430413
 20
-226.2622268062
 10
631.7496243523
 20
-229.7062404201
 10
632.2637737572
 20
-233.3104264909
 10
632.5730157215
 20
-237.0616337776
 10
632.6762228168
 20
-240.9461742227
 10
632.5730157215
 20
-244.9498750435
 10
632.2637737572
 20
-249.0581255023
 10
631.7496243523
 20
-253.2559358405
 10
631.0324430413
 20
-257.5279893707
 10
630.1148481973
 20
-261.8586953285
 10
629.0001852264
 20
-266.2322546507
 10
627.6925265678
 20
-270.6327056034
 10
626.1966400837
 20
-275.0439922204
 10
624.5179785227
 20
-279.4500236188
 10
622.6626795196
 20
-283.8347150632
 10
620.6375023752
 20
-288.1820700906
 10
618.4498438615
 20
-292.476226139
 10
616.1076802695
 20
-296.7015123378
 10
613.6195647752
 20
-300.8425149066
 10
610.9945694879
 20
-304.8841197363
 10
608.2422775472
 20
-308.8115838716
 10
605.3727278056
 20
-312.6105704871
 10
602.3963937549
 20
-316.2672279735
 10
599.3241361112
 20
-319.7681990588
 10
596.167163302
 20
-323.1007166228
 10
592.9369959049
 20
-326.2526242262
 10
589.6454205495
 20
-329.21241489
 10
586.3044464535
 20
-331.9692926891
 10
582.9262659099
 20
-334.5131955619
 10
579.5232052255
 20
-336.8348418848
 10
576.1076815863
 20
-338.9257614564
 10
572.692157947
 20
-340.7783215394
 10
569.2890972626
 20
-342.3857654496
 10
565.910916719
 20
-343.7422268109
 10
562.569942623
 20
-344.8427555959
 10
559.2783672676
 20
-345.6833369441
 10
556.0481998705
 20
-346.2609012334
 10
552.8912270613
 20
-346.5733468897
 10
549.8189694176
 20
-346.6195289766
 10
546.8426353669
 20
-346.3992736392
 10
543.9730856253
 20
-345.9133986338
 10
541.2207936846
 20
-345.1636631334
 10
538.5957983973
 20
-344.152813351
 10
536.1109334787
 20
-342.8864049118
  0
LWPOLYLINE
  5
EB
330
1F
100
AcDbEntity
  8
0
  6
Continuous
 62
     1
370
    25
100
AcDbPolyline
 90
       59
 70
   128
 43
0.0
 10
524.2851929165
 20
-114.4560579067
 10
526.4982607116
 20
-116.4632183911
 10
528.8358777123
 20
-118.9514654711
 10
531.0007505861
 20
-121.6722641453
 10
532.9872369235
 20
-124.6185081188
 10
534.7901473939
 20
-127.7825192715
 10
536.4047773553
 20
-131.1560385348
 10
537.8269173912
 20
-134.730271521
 10
539.0528638472
 20
-138.4958824401
 10
540.0794082946
 20
-142.4430564569
 10
540.9038744085
 20
-146.5614936108
 10
541.5241126995
 20
-150.8404491201
 10
541.9385057824
 20
-155.2687584773
 10
542.1459736442
 20
-159.8348688188
 10
542.1459736442
 20
-164.526868203
 10
541.9385057824
 20
-169.3325158391
 10
541.5241126995
 20
-174.2392732657
 10
540.9038744085
 20
-179.2343406629
 10
540.0794082946
 20
-184.30468613
 10
539.0528638472
 20
-189.4370831376
 10
537.8269173912
 20
-194.6181417062
 10
536.4047773553
 20
-199.8343426275
 10
534.7901473939
 20
-205.0720739634
 10
532.9872369235
 20
-210.3176812372
 10
531.0007505861
 20
-215.5574735164
 10
528.8358777123
 20
-220.777781207
 10
526.4982607116
 20
-225.9649834272
 10
523.9940003402
 20
-231.1055445099
 10
521.3296240913
 20
-236.1860626697
 10
518.5120914632
 20
-241.1932791286
 10
515.5487465444
 20
-246.1141267814
 10
512.4473232816
 20
-250.9357758239
 10
509.2159086012
 20
-255.6456367912
 10
505.8629424097
 20
-260.2314335626
 10
502.3971649098
 20
-264.6811911883
 10
498.8276218688
 20
-268.9833058536
 10
495.1636198379
 20
-273.1265524784
 10
491.4147235173
 20
-277.1001288245
 10
487.5907109759
 20
-280.8936570117
 10
483.7015591631
 20
-284.4972466355
 10
479.7574136155
 20
-287.901500087
 10
475.7685647496
 20
-291.097526239
 10
471.7454202029
 20
-294.076992916
 10
467.6984738819
 20
-296.8321265101
 10
463.6382850542
 20
-299.3557423033
 10
459.5754455847
 20
-301.6412512131
 10
455.5205555707
 20
-303.6826921099
 10
451.4841933771
 20
-305.4747430314
 10
447.4768894599
 20
-307.0127180427
 10
443.5090982132
 20
-308.2926199911
 10
439.5911719567
 20
-309.3110946858
 10
435.733331301
 20
-310.0654966749
 10
431.9456414406
 20
-310.5538481784
 10
428.2379831771
 20
-310.7748862341
 10
424.6200318464
 20
-310.7280261936
 10
421.1012204402
 20
-310.413389095
 10
417.6907343372
 20
-309.8318047048
 10
414.397474425
 20
-308.9847780538
 10
412.313755308
 20
-308.2892274316
  0
ARC
  5
EC
330
1F
100
AcDbEntity
  8
0
  6
Continuous
 62
     1
370
    25
100
AcDbCircle
 10
552.1694055341
 20
-259.7832281844
 30
0.0
 40
161.3100979572549
100
AcDbArc
 50
130.963941382
 51
169.041434032
  0
LWPOLYLINE
  5
ED
330
1F
100
AcDbEntity
  8
0
  6
Continuous
 62
     1
370
    25
100
AcDbPolyline
 90
       41
 70
   128
 43
0.0
 10
540.7249584024
 20
-143.6069704812
 10
541.4013784425
 20
-147.0655613859
 10
542.0203575964
 20
-151.3358208838
 10
542.4339077424
 20
-155.755132365
 10
542.6409541357
 20
-160.3119634987
 10
542.6409541357
 20
-164.9944281992
 10
542.4339077424
 20
-169.7903100104
 10
542.0203575964
 20
-174.6870963267
 10
541.4013784425
 20
-179.6720139439
 10
540.5785823975
 20
-184.7320583373
 10
539.5541242191
 20
-189.8540250317
 10
538.3306749638
 20
-195.0245529444
 10
536.911421987
 20
-200.230153284
 10
535.3000742115
 20
-205.4572414892
 10
533.5008252486
 20
-210.6921904587
 10
531.5183797402
 20
-215.9213335947
 10
529.3579059438
 20
-221.131028678
 10
527.0250357318
 20
-226.3076913279
 10
524.5258645924
 20
-231.4378071699
 10
521.8669042136
 20
-236.5080017937
 10
519.0550930202
 20
-241.5050468378
 10
516.0977751008
 20
-246.4158934481
 10
513.0026527917
 20
-251.2277422361
 10
509.7778077513
 20
-255.9280311131
 10
506.4316535442
 20
-260.5045052486
 10
502.9729198364
 20
-264.9452201106
 10
499.4106286876
 20
-269.2385977377
 10
495.7540734779
 20
-273.3734267371
 10
492.0127952002
 20
-277.3389246402
 10
488.196553484
 20
-281.1247424629
 10
484.3153055224
 20
-284.721013373
 10
480.3791744615
 20
-288.1183466037
 10
476.3984322785
 20
-291.3078799238
 10
472.3834629032
 20
-294.28128876
 10
468.3447408154
 20
-297.0308289707
 10
464.2928026448
 20
-299.549310655
 10
460.2382195948
 20
-301.8301749093
 10
456.1915696189
 20
-303.8674673037
 10
452.1634095972
 20
-305.655872195
 10
448.1642492414
 20
-307.1907277912
 10
446.1965340566
 20
-307.8560729
  0
LWPOLYLINE
  5
EE
330
1F
100
AcDbEntity
  8
0
  6
Continuous
 62
     1
370
    25
100
AcDbPolyline
 90
       37
 70
   128
 43
0.0
 10
561.4571683577
 20
-185.4332663132
 10
561.584551939
 20
-185.9449161783
 10
562.3037826405
 20
-189.3987718952
 10
562.8194019168
 20
-193.0132570529
 10
563.1295289648
 20
-196.7751835274
 10
563.2330310881
 20
-200.6708248572
 10
563.1295289648
 20
-204.6859671948
 10
562.8194019168
 20
-208.8059587373
 10
562.3037826405
 20
-213.0157652397
 10
561.584551939
 20
-217.3000270488
 10
560.6643334537
 20
-221.6431100544
 10
559.5464883957
 20
-226.0291650043
 10
558.2350892043
 20
-230.4421921413
 10
556.7349248151
 20
-234.8660898736
 10
555.0514743184
 20
-239.2847049625
 10
553.1908700808
 20
-243.6819283375
 10
551.1599082814
 20
-248.0417057439
 10
548.9659935949
 20
-252.3481365973
 10
546.6171391907
 20
-256.585498319
 10
544.1219114157
 20
-260.738333023
 10
541.4894139894
 20
-264.7914931429
 10
538.7292563931
 20
-268.7301779305
 10
535.8515064552
 20
-272.5400247076
 10
532.8666692779
 20
-276.2071210307
 10
529.7856292846
 20
-279.7181020254
 10
526.6196357327
 20
-283.0601465825
 10
523.3802381758
 20
-286.2210572004
 10
520.0792561707
 20
-289.1893078917
 10
516.7287344964
 20
-291.9540639509
 10
513.3409003488
 20
-294.5052370839
 10
509.9281146084
 20
-296.8335196243
 10
506.5028303517
 20
-298.9304145677
 10
503.0775460951
 20
-300.7882686478
 10
499.6647603547
 20
-302.4003046513
 10
496.2769262071
 20
-303.7606415663
 10
492.9264045328
 20
-304.8643154904
 10
490.4468488001
 20
-305.5208269439
  0
ARC
  5
EF
330
1F
100
AcDbEntity
  8
0
  6
Continuous
 62
     1
370
    25
100
AcDbCircle
 10
554.4140491284
 20
-261.0790344451
 30
0.0
 40
161.6522953500919
100
AcDbArc
 50
132.232814176
 51
167.7725606213
  0
LWPOLYLINE
  5
F0
330
1F
100
AcDbEntity
  8
0
  6
Continuous
 62
     1
370
    25
100
AcDbPolyline
 90
       45
 70
   128
 43
0.0
 10
557.175699191
 20
-174.4091275547
 10
557.2483708945
 20
-174.5265346349
 10
558.7442573786
 20
-177.2107074801
 10
560.0519160372
 20
-180.1013678824
 10
561.1665790081
 20
-183.1879647321
 10
562.0841738521
 20
-186.4592382337
 10
562.8013551631
 20
-189.9032518476
 10
563.3155045681
 20
-193.5074379184
 10
563.6247465323
 20
-197.2586452051
 10
563.7279536276
 20
-201.1431856502
 10
563.6247465323
 20
-205.1468864711
 10
563.3155045681
 20
-209.2551369298
 10
562.8013551631
 20
-213.452947268
 10
562.0841738521
 20
-217.7250007982
 10
561.1665790081
 20
-222.055706756
 10
560.0519160372
 20
-226.4292660782
 10
558.7442573786
 20
-230.8297170309
 10
557.2483708945
 20
-235.241003648
 10
555.5697093335
 20
-239.6470350463
 10
553.7144103304
 20
-244.0317264907
 10
551.6892331861
 20
-248.3790815181
 10
549.5015746723
 20
-252.6732375666
 10
547.1594110803
 20
-256.8985237653
 10
544.6712955861
 20
-261.0395263342
 10
542.0463002988
 20
-265.0811311639
 10
539.2940083581
 20
-269.0085952992
 10
536.4244586164
 20
-272.8075819146
 10
533.4481245658
 20
-276.4642394011
 10
530.3758669221
 20
-279.9652104863
 10
527.2188941128
 20
-283.2977280503
 10
523.9887267157
 20
-286.4496356537
 10
520.6971513604
 20
-289.4094263175
 10
517.3561772643
 20
-292.1663041166
 10
513.9779967207
 20
-294.7102069895
 10
510.5749360363
 20
-297.0318533124
 10
507.1594123971
 20
-299.1227728839
 10
503.7438887579
 20
-300.9753329669
 10
500.3408280735
 20
-302.5827768772
 10
496.9626475298
 20
-303.9392382384
 10
493.6216734338
 20
-305.0397670234
 10
490.3300980784
 20
-305.8803483717
 10
487.0999306813
 20
-306.4579126609
 10
483.9429578721
 20
-306.7703583173
 10
480.8707002284
 20
-306.8165404041
 10
480.7408273489
 20
-306.8125540387
  0
ENDSEC
  0
SECTION
  2
OBJECTS
  0
DICTIONARY
  5
C
330
0
100
AcDbDictionary
281
     1
  3
ACAD_GROUP
350
D
  3
ACAD_LAYOUT
350
1A
  3
ACAD_MLINESTYLE
350
17
  3
ACAD_PLOTSETTINGS
350
19
  3
ACAD_PLOTSTYLENAME
350
E
  3
ACAD_SCALELIST
350
47
  0
DICTIONARY
  5
D
102
{ACAD_REACTORS
330
C
102
}
330
C
100
AcDbDictionary
281
     1
  0
DICTIONARY
  5
1A
102
{ACAD_REACTORS
330
C
102
}
330
C
100
AcDbDictionary
281
     1
  3
Layout1
350
1E
  3
Layout2
350
26
  3
Model
350
22
  0
DICTIONARY
  5
17
102
{ACAD_REACTORS
330
C
102
}
330
C
100
AcDbDictionary
281
     1
  3
Standard
350
18
  0
DICTIONARY
  5
19
102
{ACAD_REACTORS
330
C
102
}
330
C
100
AcDbDictionary
281
     1
  0
ACDBDICTIONARYWDFLT
  5
E
102
{ACAD_REACTORS
330
C
102
}
330
C
100
AcDbDictionary
281
     1
  3
Normal
350
F
100
AcDbDictionaryWithDefault
340
F
  0
DICTIONARY
  5
47
102
{ACAD_REACTORS
330
C
102
}
330
C
100
AcDbDictionary
281
     1
  3
A0
350
48
  3
A1
350
49
  3
A2
350
4A
  3
A3
350
4B
  3
A4
350
4C
  3
A5
350
4D
  3
A6
350
4E
  3
A7
350
4F
  3
A8
350
50
  3
A9
350
51
  3
B0
350
52
  3
B1
350
53
  3
B2
350
54
  3
B3
350
55
  3
B4
350
56
  3
B5
350
57
  3
B6
350
58
  3
B7
350
59
  3
B8
350
5A
  3
B9
350
5B
  3
C0
350
5C
  3
C1
350
5D
  3
C2
350
5E
  3
C3
350
5F
  3
C4
350
60
  3
C5
350
61
  3
C6
350
62
  3
C7
350
63
  3
C8
350
64
  3
C9
350
65
  3
D0
350
66
  3
D1
350
67
  3
D2
350
68
  0
LAYOUT
  5
1E
102
{ACAD_REACTORS
330
1A
102
}
330
1A
100
AcDbPlotSettings
  1

  2
none_device
  4

  6

 40
0.0
 41
0.0
 42
0.0
 43
0.0
 44
0.0
 45
0.0
 46
0.0
 47
0.0
 48
0.0
 49
0.0
140
0.0
141
0.0
142
1.0
143
1.0
 70
   688
 72
     1
 73
     0
 74
     5
  7

 75
    16
147
1.0
148
0.0
149
0.0
100
AcDbLayout
  1
Layout1
 70
     1
 71
     1
 10
0.0
 20
0.0
 11
420.0
 21
297.0
 12
0.0
 22
0.0
 32
0.0
 14
1.0000000000E+20
 24
1.0000000000E+20
 34
1.0000000000E+20
 15
-1.0000000000E+20
 25
-1.0000000000E+20
 35
-1.0000000000E+20
146
0.0
 13
0.0
 23
0.0
 33
0.0
 16
1.0
 26
0.0
 36
0.0
 17
0.0
 27
1.0
 37
0.0
 76
     0
330
1B
  0
LAYOUT
  5
26
102
{ACAD_REACTORS
330
1A
102
}
330
1A
100
AcDbPlotSettings
  1

  2
none_device
  4

  6

 40
0.0
 41
0.0
 42
0.0
 43
0.0
 44
0.0
 45
0.0
 46
0.0
 47
0.0
 48
0.0
 49
0.0
140
0.0
141
0.0
142
1.0
143
1.0
 70
   688
 72
     1
 73
     0
 74
     5
  7

 75
    16
147
1.0
148
0.0
149
0.0
100
AcDbLayout
  1
Layout2
 70
     1
 71
     2
 10
0.0
 20
0.0
 11
0.0
 21
0.0
 12
0.0
 22
0.0
 32
0.0
 14
0.0
 24
0.0
 34
0.0
 15
0.0
 25
0.0
 35
0.0
146
0.0
 13
0.0
 23
0.0
 33
0.0
 16
1.0
 26
0.0
 36
0.0
 17
0.0
 27
1.0
 37
0.0
 76
     0
330
23
  0
LAYOUT
  5
22
102
{ACAD_REACTORS
330
1A
102
}
330
1A
100
AcDbPlotSettings
  1

  2
none_device
  4
Letter_(8.50_x_11.00_Inches)
  6

 40
6.35
 41
6.35
 42
6.35000508
 43
6.35000508
 44
215.9
 45
279.4
 46
0.0
 47
0.0
 48
0.0
 49
0.0
140
0.0
141
0.0
142
1.0
143
1.0
 70
  1712
 72
     1
 73
     0
 74
     0
  7

 75
     0
147
1.0
148
0.0
149
0.0
100
AcDbLayout
  1
Model
 70
     1
 71
     0
 10
0.0
 20
0.0
 11
279.4
 21
215.9
 12
0.0
 22
0.0
 32
0.0
 14
0.0
 24
0.0
 34
0.0
 15
279.4
 25
215.9
 35
0.0
146
0.0
 13
0.0
 23
0.0
 33
0.0
 16
1.0
 26
0.0
 36
0.0
 17
0.0
 27
1.0
 37
0.0
 76
     0
330
1F
331
29
  0
MLINESTYLE
  5
18
102
{ACAD_REACTORS
330
17
102
}
330
17
100
AcDbMlineStyle
  2
Standard
 70
     0
  3

 62
   256
 51
90.0
 52
90.0
 71
     2
 49
0.5
 62
   256
  6
BYLAYER
 49
-0.5
 62
   256
  6
BYLAYER
  0
ACDBPLACEHOLDER
  5
F
102
{ACAD_REACTORS
330
E
102
}
330
E
  0
SCALE
  5
48
102
{ACAD_REACTORS
330
47
102
}
330
47
100
AcDbScale
 70
     0
300
1:1
140
1.0
141
1.0
290
     1
  0
SCALE
  5
49
102
{ACAD_REACTORS
330
47
102
}
330
47
100
AcDbScale
 70
     0
300
1:2
140
1.0
141
2.0
290
     0
  0
SCALE
  5
4A
102
{ACAD_REACTORS
330
47
102
}
330
47
100
AcDbScale
 70
     0
300
1:4
140
1.0
141
4.0
290
     0
  0
SCALE
  5
4B
102
{ACAD_REACTORS
330
47
102
}
330
47
100
AcDbScale
 70
     0
300
1:5
140
1.0
141
5.0
290
     0
  0
SCALE
  5
4C
102
{ACAD_REACTORS
330
47
102
}
330
47
100
AcDbScale
 70
     0
300
1:8
140
1.0
141
8.0
290
     0
  0
SCALE
  5
4D
102
{ACAD_REACTORS
330
47
102
}
330
47
100
AcDbScale
 70
     0
300
1:10
140
1.0
141
10.0
290
     0
  0
SCALE
  5
4E
102
{ACAD_REACTORS
330
47
102
}
330
47
100
AcDbScale
 70
     0
300
1:16
140
1.0
141
16.0
290
     0
  0
SCALE
  5
4F
102
{ACAD_REACTORS
330
47
102
}
330
47
100
AcDbScale
 70
     0
300
1:20
140
1.0
141
20.0
290
     0
  0
SCALE
  5
50
102
{ACAD_REACTORS
330
47
102
}
330
47
100
AcDbScale
 70
     0
300
1:30
140
1.0
141
30.0
290
     0
  0
SCALE
  5
51
102
{ACAD_REACTORS
330
47
102
}
330
47
100
AcDbScale
 70
     0
300
1:40
140
1.0
141
40.0
290
     0
  0
SCALE
  5
52
102
{ACAD_REACTORS
330
47
102
}
330
47
100
AcDbScale
 70
     0
300
1:50
140
1.0
141
50.0
290
     0
  0
SCALE
  5
53
102
{ACAD_REACTORS
330
47
102
}
330
47
100
AcDbScale
 70
     0
300
1:100
140
1.0
141
100.0
290
     0
  0
SCALE
  5
54
102
{ACAD_REACTORS
330
47
102
}
330
47
100
AcDbScale
 70
     0
300
2:1
140
2.0
141
1.0
290
     0
  0
SCALE
  5
55
102
{ACAD_REACTORS
330
47
102
}
330
47
100
AcDbScale
 70
     0
300
4:1
140
4.0
141
1.0
290
     0
  0
SCALE
  5
56
102
{ACAD_REACTORS
330
47
102
}
330
47
100
AcDbScale
 70
     0
300
8:1
140
8.0
141
1.0
290
     0
  0
SCALE
  5
57
102
{ACAD_REACTORS
330
47
102
}
330
47
100
AcDbScale
 70
     0
300
10:1
140
10.0
141
1.0
290
     0
  0
SCALE
  5
58
102
{ACAD_REACTORS
330
47
102
}
330
47
100
AcDbScale
 70
     0
300
100:1
140
100.0
141
1.0
290
     0
  0
SCALE
  5
59
102
{ACAD_REACTORS
330
47
102
}
330
47
100
AcDbScale
 70
     0
300
1/128" = 1'-0"
140
0.0078125
141
12.0
290
     0
  0
SCALE
  5
5A
102
{ACAD_REACTORS
330
47
102
}
330
47
100
AcDbScale
 70
     0
300
1/64" = 1'-0"
140
0.015625
141
12.0
290
     0
  0
SCALE
  5
5B
102
{ACAD_REACTORS
330
47
102
}
330
47
100
AcDbScale
 70
     0
300
1/32" = 1'-0"
140
0.03125
141
12.0
290
     0
  0
SCALE
  5
5C
102
{ACAD_REACTORS
330
47
102
}
330
47
100
AcDbScale
 70
     0
300
1/16" = 1'-0"
140
0.0625
141
12.0
290
     0
  0
SCALE
  5
5D
102
{ACAD_REACTORS
330
47
102
}
330
47
100
AcDbScale
 70
     0
300
3/32" = 1'-0"
140
0.09375
141
12.0
290
     0
  0
SCALE
  5
5E
102
{ACAD_REACTORS
330
47
102
}
330
47
100
AcDbScale
 70
     0
300
1/8" = 1'-0"
140
0.125
141
12.0
290
     0
  0
SCALE
  5
5F
102
{ACAD_REACTORS
330
47
102
}
330
47
100
AcDbScale
 70
     0
300
3/16" = 1'-0"
140
0.1875
141
12.0
290
     0
  0
SCALE
  5
60
102
{ACAD_REACTORS
330
47
102
}
330
47
100
AcDbScale
 70
     0
300
1/4" = 1'-0"
140
0.25
141
12.0
290
     0
  0
SCALE
  5
61
102
{ACAD_REACTORS
330
47
102
}
330
47
100
AcDbScale
 70
     0
300
3/8" = 1'-0"
140
0.375
141
12.0
290
     0
  0
SCALE
  5
62
102
{ACAD_REACTORS
330
47
102
}
330
47
100
AcDbScale
 70
     0
300
1/2" = 1'-0"
140
0.5
141
12.0
290
     0
  0
SCALE
  5
63
102
{ACAD_REACTORS
330
47
102
}
330
47
100
AcDbScale
 70
     0
300
3/4" = 1'-0"
140
0.75
141
12.0
290
     0
  0
SCALE
  5
64
102
{ACAD_REACTORS
330
47
102
}
330
47
100
AcDbScale
 70
     0
300
1" = 1'-0"
140
1.0
141
12.0
290
     0
  0
SCALE
  5
65
102
{ACAD_REACTORS
330
47
102
}
330
47
100
AcDbScale
 70
     0
300
1-1/2" = 1'-0"
140
1.5
141
12.0
290
     0
  0
SCALE
  5
66
102
{ACAD_REACTORS
330
47
102
}
330
47
100
AcDbScale
 70
     0
300
3" = 1'-0"
140
3.0
141
12.0
290
     0
  0
SCALE
  5
67
102
{ACAD_REACTORS
330
47
102
}
330
47
100
AcDbScale
 70
     0
300
6" = 1'-0"
140
6.0
141
12.0
290
     0
  0
SCALE
  5
68
102
{ACAD_REACTORS
330
47
102
}
330
47
100
AcDbScale
 70
     0
300
1'-0" = 1'-0"
140
12.0
141
12.0
290
     0
  0
ENDSEC
  0
EOF
